Fórum Cifras - Índice do Fórum
FAQFAQ PesquisarPesquisar MembrosMembros GruposGrupos RegistrarRegistrar  
PerfilPerfil Entrar e ver Mensagens ParticularesEntrar e ver Mensagens Particulares EntrarEntrar 

Quem sabe dá a dica
Ir à página 1, 2, 3 ... 13, 14, 15  Próximo
 
Novo Tópico   Responder Mensagem    Fórum Cifras - Índice do Fórum -> Guitarra
Exibir mensagem anterior :: Exibir próxima mensagem  
Autor Mensagem
osquinha



Registrado em: Quarta-Feira, 8 de Dezembro de 2004
Mensagens: 451

MensagemEnviada: Sex Jun 03, 2005 3:16 pm    Assunto: Quem sabe dá a dica Responder com Citação

Yae guitarplayers


Estou criando este tópico com dois simples objetivos:

Ajudar os iniciantes e ver o quanto cada usuário está aprendendo e/ou já sabe.

Cada um vem e dá uma dica para solos, batidas e harmonias, principalmente de técnicas e escolha de notas para solos, isso irá contribuir para o crescimento musical de cada um de nós.

Vou dar a primeira dica:

É uma técnica chamada Pedal Point que consiste em repetir a mesma nota a cada vez que tocamos outra, é bem simples
Código:

e:--7--5--7--3----7-----7------7-------7------
b:---------------7----5------3------------------
g:-----------------------------------5-------4--
d:-----------------------------------------------
a:-----------------------------------------------
E:-----------------------------------------------

esse exemplo está em Em ou G, ele é bem erudito bem legal pra ser tocada em heavy metal principalmente
como vcs podem ver a nota pedal é o B(Si) ou seja a 7º nota da corda E.

bem legal né?

lá vai outro
Código:

Am (7/9)
e:---------------------------------------------
b:---------------------------------------------
g:---------------------------------------------
d:---------------------------------------------
a:-------3------5------7------5-------3-------------
E:-5-5-----5-5---5-5----5-5----5-5-----------------------

F (7+)
e:---------------------------------------------
b:---------------------------------------------
g:---------------------------------------------
d:---------------------------------------------
a:------0-------2------3-------2--------0-----------
E:-1-1----1-1----1-1----1-1------1-1----------------------

G (9)
e:---------------------------------------------
b:---------------------------------------------
g:---------------------------------------------
d:---------------------------------------------
a:------2-------3------5-------3--------2-----------
E:-3-3----3-3----3-3----3-3-----3-3----------------------


Sem dificuldades né? Soh que dessa vez a nota pedal acompanhou a nota do baixo.
No arcode Am é A(Lá) 5º casa da 6ºcorda
No arcode F é F(Fá) 1º casa da 6ºcorda
No arcode G é G(Sol) 3º casa da 6ºcorda

isso utdo dentro do campo harmônico de Am ou C.

Então se tudo der certo essa é a primeira de muitas dicas.

pessoal espero ter contribuído com a evolução de vcs

Flw Cool
Voltar ao Topo
Ver o perfil de Usuários Enviar Mensagem Particular
Thomas Huskey
Luthier
Luthier


Registrado em: Sexta-Feira, 25 de Março de 2005
Mensagens: 3193

MensagemEnviada: Sex Jun 03, 2005 9:09 pm    Assunto: 2 minutes to midnight Responder com Citação

na música 2 minutes to midnight no IRON tem pedal point...

essa técnica é facil...e boa pra tudo..intro..solo...
Voltar ao Topo
Ver o perfil de Usuários Enviar Mensagem Particular
Herdeiro



Registrado em: Terça-Feira, 12 de Agosto de 2003
Mensagens: 1

MensagemEnviada: Seg Jun 13, 2005 2:15 pm    Assunto: Responder com Citação

Laughing Eu qro aprender a solar, por favor me passem algumas dicas ou mesmo formas mais facil de aprender..

Sou leigo de tudo...

tenho conhecimento em base partiu pra solo eu me embaralho todo, tipo perco tempo, nao tenho agilidade..


por favor qm souber algum metodo ou dicas me passem..

[email protected]

ou o forum estarei acompanhando

grato
Voltar ao Topo
Ver o perfil de Usuários Enviar Mensagem Particular
xxDiogo Brunoxx



Registrado em: Domingo, 11 de Julho de 2004
Mensagens: 1024

MensagemEnviada: Seg Jun 13, 2005 11:27 pm    Assunto: Responder com Citação

Pô, acho esse tópico importante paca, + tah congelado aqui! Cade as pessoas q ficam falando q são melhores q as outras?? se são, pq não ajudam com suas dicas??
Já q quase ninguem q ajuda eu vo mostra uns exercicios q eu faço p/ treina velocidade e precisão, visando base p/ começa a solar
Código:

Exercício 1
|--15-12-15-12-------------------------------------|
|--------------15-12-15-12-------------------------|
|--------------------------14-12-14-12-------------|
|--------------------------------------14-12-14-12-|
|--------------------------------------------------|
|--------------------------------------------------|


                                                   
--------------------------------------------------|
--------------------------------------------------|
--------------------------------------------------|
--------------------------------------14-12-14-12-|
--14-12-14-12-------------14-12-14-12-------------|
--------------14-12-14-12-------------------------|


                                                               
--------------------------15-12-15-12-15b---|
--------------15-12-15-12-------------------|
--14-12-14-12-------------------------------|
--------------------------------------------|
--------------------------------------------|
--------------------------------------------|



Exercício 2(acho esse bem legal, pq depois desse da p/ pular p/ uns exercicios de salto bem bacanas!)                                             
---------------------------------------------|
---------------------------------------------|
-------------9-11-13-11-9---------------9-11-|
--12-9-11-12--------------12-11-9-11-12------|
---------------------------------------------|
---------------------------------------------|


                                             
---------------------------------------------|
---------------------------------------------|
--13-11-9----------------------------------9-|
----------12-11-9---------------------9-11---|
------------------12-11-12-11-9-11-12--------|
---------------------------------------------|


                                             
---------------------------------------------|
---------------------------------------------|
-------------9-11-13-11-9---------------9-11-|
--12-9-11-12--------------12-11-9-11-12------|
---------------------------------------------|
---------------------------------------------|


                                                                 
---------------------------------------------|
---------------------------------------------|
--13-11-9----------------------------------9~|
----------12-11-9---------------------9-11---|
------------------12-11-12-11-9-11-12--------|
---------------------------------------------|


Exercício 3 (esse parece q tah subindo degrau a degrau, bem manero, ajuda na precisão)                                                     
----------------------------------|
----------------------------------|
----------------------------------|
--------------------------------5-|
--------5-----5-6---5-6-7-5-6-7---|
--5-6-7---6-7-----7---------------|


                                                                     
----------------------------------|----------------------------------|
----------------------------------|----------------5-----5-6---5-6-7-|
------------------------5-----5-6-|----5-6-7-5-6-7---6-7-----7-------|
------5-6---5-6-7-5-6-7---6-7-----|--7-------------------------------|
--6-7-----7-----------------------|----------------------------------|
----------------------------------|----------------------------------|


                                                                   
--------5-----5-6---5-6-7----7-|--6-5---6-5-----5-----------------|
--5-6-7---6-7-----7------------|------7-----7-6---7-6-5-7-6-5---6-|
-------------------------------|------------------------------7---|
-------------------------------|----------------------------------|
-------------------------------|----------------------------------|
-------------------------------|----------------------------------|


                                                                     
----------------------------------|----------------------------------|
--5-----5-------------------------|----------------------------------|
----7-6---7-6-5-7-6-5---6-5-----5-|----------------------------------|
----------------------7-----7-6---|--7-6-5-7-6-5---6-5-----5---------|
----------------------------------|--------------7-----7-6---7-6-5-7-|
----------------------------------|----------------------------------|


                                             
-------------------------|------------------|
-------------------------|------------------|
-------------------------|------------------|
-------------------------|------------------|
--6-5---5----------------|------------------|
------7---7-6-5----------|------------------|


Exercício 4(Esse é p/ tentar por precisão e velocidade em teste, eh um lick pequeno, + bem manerinho!)                                                                         
--------------------------------------|-----------------------------------|
--------------------------------------|-----------------------------------|
--------------------------------------|-----------------------------------|
--------------------------------------|-----------------------------------|
-----------5--7--8-----------5--7--8--|--------5-7-8-------5-7-8--------7-|
--5--7--8-----------5--7--8-----------|--5-7-8-------5-7-8-------7-9-10---|


                                                                           
---------------------------------------|-----------------------------------|
---------------------------------------|-----------------------------------|
---------------------------------------|-----------------------------------|
---------------------------------------|-----------------------------------|
--9-10--------7-9-10--------7-9-10-----|-----7-9-10-------5-7-8-7-5--------|
-------7-9-10--------7-9-10--------7-9-|--10--------5-7-8-----------8-7-5--|


Falou, tá aqui minha contribuição! qq hora passo aqui p/ mostra + uns exercicios bacanas q eu ando fazendo!!
Voltar ao Topo
Ver o perfil de Usuários Enviar Mensagem Particular
teve50p



Registrado em: Quarta-Feira, 13 de Abril de 2005
Mensagens: 12

MensagemEnviada: Sex Jun 17, 2005 12:06 am    Assunto: Responder com Citação

Poxa, legal, eu particulamente adorei esse topico pois estou querendo ser um guitarrista mas n tenho guitarra, pois o din din ta baixo, mas n tem pro, eu tenho paciencia e acredito q um dia eu chego la, enquanto isso eu pego umas coisas ali, outras aqui de guitarra, e estudo guitarra e violao no violao...
Voltar ao Topo
Ver o perfil de Usuários Enviar Mensagem Particular
BigPig



Registrado em: Quarta-Feira, 16 de Março de 2005
Mensagens: 98

MensagemEnviada: Sex Jun 17, 2005 9:08 pm    Assunto: Responder com Citação

Vou tentar deixar uma dica.....
vamos lah...

pra tocar guitarra, especialmente solos,
eu acho importante alongar os dedos primeiro..
tp..
faça força pra fora, o maximo q você puder, sentido abrir..
resolve bastante pra mim..
parece q mao fica mais leve...
e depois, para aquecer eu toco uma musica cum mtos acordes dificeis..
a mao fica solta pra caramba, parece q tem mais agilidade a precsao..


otra coisa q eu acho mto mto legal, q se você tiver guitarra dah pra fazer eh tocar uma oitava abaixo ou coisa parecida..
Ex;E na 6° solta e E na 12ª casa da 6ª corda...
mt legl msm..
quem usava isso pra caramba era o Jimmy page, pq quando o solo repetia varias vezes, pra nao ficar chato fazia isso(Ouve Whole Lotta Love, dah pra perceber...)


flw galera...
Voltar ao Topo
Ver o perfil de Usuários Enviar Mensagem Particular
Hatake



Registrado em: Sábado, 4 de Junho de 2005
Mensagens: 173

MensagemEnviada: Dom Jun 19, 2005 11:06 am    Assunto: Responder com Citação

Para os iniciantes, acho essencial treinarem escalas. Aqui vai uma parte da escala de Blues. É MUIIIITTOOO FACIL!!

Tentem fazer a escala o mais rapido possivel de tras pa frente e vice versa.

Citação:
E|---5--8-------------------------------------------|
A|--------------------5-6-7------------------------------|
D|--------------------------5-7--------------------------|
G|-------------------------------5-7-8-------------------|
B|--------------------------------------------------|
e|--------------------------------------------------|



Quando tiver tempo passo por aqui para meter exercicios mais dificeis
Voltar ao Topo
Ver o perfil de Usuários Enviar Mensagem Particular
xxDiogo Brunoxx



Registrado em: Domingo, 11 de Julho de 2004
Mensagens: 1024

MensagemEnviada: Seg Jun 27, 2005 4:24 pm    Assunto: Sweep 2/3 cordas Responder com Citação

Pessoal, esse exercicio q vo mostra aqui foi retirado da Guitar player n° 107.
Trata se de sweeps curtos, ao inves daqueles sweeps de 5 e 6 cordas tem esses curtinhos q tem um tom melodico tão bom quanto os maiores
aki vai
Código:
                                             
E||------------------------------------------|
B||----10-10-----12-12-----13-13-----12-12---|
G||--9-------9-9-------9-9-------9-9-------9-|
D||------------------------------------------|
A||------------------------------------------|
E||------------------------------------------|


                                                   
--------------------------------------------------|
-----12-12-------13-13-------15-15-------13-13----|
--10-------10-10-------10-10-------10-10-------10-|
--------------------------------------------------|
--------------------------------------------------|
--------------------------------------------------|


                                                   
--------------------------------------------------|
-----13-13-------15-15-------17-17-------15-15----|
--12-------12-12-------12-12-------12-12-------12-|
--------------------------------------------------|
--------------------------------------------------|
--------------------------------------------------|


                                                   
--------------------------------------------------|
-----15-15-------17-17-------18-18-------17-17----|
--14-------14-14-------14-14-------14-14-------14-|
--------------------------------------------------|
--------------------------------------------------|
--------------------------------------------------|


                                                       
|---------12-12-------10-10-------12-12-------12-12--||
|------13----------12----------13----------13--------||
|*--14----------13----------14----------14----------*||
|*--------------------------------------------------*||
|----------------------------------------------------||
|----------------------------------------------------||


                                                           
---------15-15-------13-13-------15-15-------16-16--||
------16----------15----------16----------16--------||
*--17----------16----------17----------17----------*||
*--------------------------------------------------*||
----------------------------------------------------||
----------------------------------------------------||


Vale ressalta q os ataques tem q ser bem uniforme, e também lembra de abafar as notas, ou tirar os dedos da escala p/ não sobra aquelas notas sujas.
Voltar ao Topo
Ver o perfil de Usuários Enviar Mensagem Particular
Electro



Registrado em: Quinta-Feira, 28 de Abril de 2005
Mensagens: 6

MensagemEnviada: Seg Jun 27, 2005 6:42 pm    Assunto: Responder com Citação

Citação:
Para os iniciantes, acho essencial treinarem escalas. Aqui vai uma parte da escala de Blues. É MUIIIITTOOO FACIL!!

Tentem fazer a escala o mais rapido possivel de tras pa frente e vice versa.


concordo contigo, como o cara quer sola sem escala :/
Voltar ao Topo
Ver o perfil de Usuários Enviar Mensagem Particular
xxDiogo Brunoxx



Registrado em: Domingo, 11 de Julho de 2004
Mensagens: 1024

MensagemEnviada: Seg Jun 27, 2005 8:10 pm    Assunto: Responder com Citação

já q taum falando de escala aí, essas aki são as q eu conheço + ou -, tão todas em E

E AEOLIAN
E F# G A B C D

E MAIOR LOCRIAN
E F G A A# C D

E PERSA
E F G# A A# C D#

E HARMONICA MAIOR
E F# G# A B C D#

E HARMONICA MENOR
E F# G A B C D
* eu passei elas meio que de cabeça, se tive errado correções são bem vindas
Voltar ao Topo
Ver o perfil de Usuários Enviar Mensagem Particular
maxfrage



Registrado em: Sexta-Feira, 8 de Julho de 2005
Mensagens: 73

MensagemEnviada: Sáb Jul 16, 2005 10:28 pm    Assunto: Responder com Citação

Ai vai varios exercicios pra quem realmente quer estudare----3-----3----------------5-----5--------------------

B------5-6---6-5-3------------6-8---8-6-5--------------

G------------------5----------------------7------------

D------------------------------------------------------

A-------C7M----------------------Dm7-------------------

E------------------------------------------------------

.
.
Segundo compasso: Em7 e F7M
.
.

e----7------7-----------------8-------8----------------

B------8-10---10-8-6------------10-12---12-10-8--------

G--------------------9--------------------------10-----

D------------------------------------------------------

A--------Em7-------------------------F7M---------------

E------------------------------------------------------

.
.
O terceiro compasso: G7 e Am7
.
.

e--10-------10-----------------12-------12-------------

B-----12-13----13-12-10-----------13-15----15-13-12----

G-----------------------12--------------------------14-

D------------------------------------------------------

A--------G7----------------------------Am7-------------

E------------------------------------------------------

.
.
E pra finalizar um Bm7(b5) e C7M
.
.

e--13-------13---------------15-------15----------22---

B-----15-17----17-15-13---------17-18----18-17-15------

G-----------------------16-----------------------------

D------------------------------------------------------

A------Bm7(b5)----------------------C7M----------------

E------------------------------------------------------

.
.
Observe nas músicas que você goste onde o artista usa um motivo. Aplique em outras tonalidades, use a sua criatividade e tenha sempre um bom motivo pra tocar

Em7 | Dm7 | C7M | G7(9) | C7M |
.
.

e--7------7------------5-----5-------------------------

B----8-10---10-8-6-------6-8---8-6-5-------------------

G------------------9-----------------7-----------------

D------------------------------------------------------

A------------------------------------------------------

E---Em7----------------Dm7-----------------------------

.
.

e--3-----3-------------1-----1-------------------------

B----5-6---6-5-3---------3-5---5-3-1-------------------

G----------------5-------------------4-2-4-------------

D------------------------------------------3-2---------

A------------------------------------------------------

E------C7M------------G7(9)------------------C7M-------

.

------------------------------------------------------

B---b13--10------------b15--12-------------------------

G-----------12-10--------------14-12-------------------

D-----------------12-----------------14----------------

A------------------------------------------------------

E------------------------------------------------------

.
.
.
Um outro exemplo numa frase de resolução em G, C, D e G novamente:
.
.

e------------------------------------------------------

B------------------------------------------------------

G------------------------------------------------------

D-------------5-4---7--5~~~~~~-------------------------

A-------5-3-7-----5------------------------------------

E---3-7------------------------~-----------------------
e------------------------------5-6-8-6-5-----6-5-------
B-----5-6-8-6-5------6-5-----8-----------8-6-----------
G---7-----------7--------------------------------------
D-----------------8------------------------------------
A------------------------------------------------------
E------------------------------------------------------
e---------------------------------------7--------------
B----8---10------5---7-----7---8-7--------10-8-7h8p7---
G--9---9----9--5---5--5--7---7-----7-9---------------5-
D------------------------------------------------------
A------------------------------------------------------
E------------------------------------------------------

Aquecimento

------------------------------------5-6-7-8-

-----------------------------5-6-7-8--------

----------------------5-6-7-8---------------

---------------5-6-7-8----------------------

--------5-6-7-8-----------------------------

-5-6-7-8------------------------------------

outras digitações: 5 8 6 7, 6 5 8 7, 5 7 6 8, etc


---------------------------------

---------------------------------

-5-5-5-5-5-5-5-5-5-5-5-5-5-5-5-5-

---------------------------------

---------------------------------

---------------------------------


Exercícios

---------------------------------------------------------

---------------------------------------------------------

-5-4-3-2-6-5-4-3-...-22-21-20-19-21-20-19-18-...-5-4-3-2-

---------------------------------------------------------

---------------------------------------------------------

---------------------------------------------------------


---------------------------------------------------------

---------------------------------------------------------

-2-3-4-5-3-4-5-6-...-19-20-21-22-18-19-20-21-...-2-3-4-5-

---------------------------------------------------------

---------------------------------------------------------

---------------------------------------------------------


---------------------------------------------------------

----------------------------------------------------15^^-

-2222-4444-5555-7777-9999-11111111-12121212-14141414-----

---------------------------------------------------------

---------------------------------------------------------

---------------------------------------------------------


---------------------------------7-7-7-7-12-

--------------------------9-9-9-9-----------

-------------------9-9-9-9------------------

--------10-10-10-10-------------------------

-7-7-7-7------------------------------------

--------------------------------------------

Sequências

------5-7-8-----8-7-5----------------5---------8-7-5---5-7-

-5-6-7---------------8-6-5-----5-6-8---8-6-----------8-----

-----------------------------------------------------------

-----------------------------------------------------------

-----------------------------------------------------------

-----------------------------------------------------------


-5h7p5h7p5h8p5h8p5h9p5h9p5-

---------------------------

---------------------------

---------------------------

---------------------------

---------------------------


--------------------------------------------------5-7-8-7-

---------------------------------------------5-7-8--------

----------------------------------2-4-5-2-4-5-------------

-----------------------2-4-5-2-4-5------------------------

------------2-3-5-2-3-5-----------------------------------

-2-3-5-2-3-5----------------------------------------------


------------------------------8-10-13-

-----------------------8-10-13--------

-----------------5-7-10---------------

-----------5-7-10---------------------

------3-5-8---------------------------

-3-5-8--------------------------------


---------------------------7-8-10-

---------------------7-8-10-------

----------------4-5-7-------------

-----------4-5-7------------------

------2-3-5-----------------------

-2-3-5----------------------------


----------------------------8-10-12-

---------------------8-10-12--------

----------------5-7-9---------------

-----------5-7-9--------------------

------3-5-7-------------------------

-3-5-7------------------------------


--------------------------------10-12-14-

------------------------10-12-13---------

-----------------7-9-11------------------

-----------7-9-10------------------------

------5-7-9------------------------------

-5-7-8-----------------------------------


------5-7-8------7-8-10-------8-10-12--------10-12-13-------

-5-6-8-----6-8-10------8-10-12-------10-12-13-------12-13-15

------------------------------------------------------------

------------------------------------------------------------

------------------------------------------------------------

------------------------------------------------------------

continuação

-12-13-15--------13-15-17--------15-17-19--------17-19-20-

---------13-15-17--------15-17-18--------17-18-20---------

----------------------------------------------------------

----------------------------------------------------------

----------------------------------------------------------

----------------------------------------------------------

Escalas

a)Modos Gregos- G


Jônio

-------------------------------5-7-8-

-------------------------5-7-8-------

-------------------4-5-7-------------

-------------4-5-7-------------------

-------3-5-7-------------------------

-3-5-7-------------------------------


Dório

--------------------------------7-8-10-

-------------------------7-8-10--------

-------------------5-7-9---------------

-------------5-7-9---------------------

-------5-7-9---------------------------

-5-7-8---------------------------------


Frígio

-------------------------------------8-10-12-

-----------------------------8-10-12---------

----------------------7-9-11-----------------

---------------7-9-10------------------------

--------7-9-10-------------------------------

-7-8-10--------------------------------------


Lídio

------------------------------------------10-12-14-

---------------------------------10-12-13----------

-------------------------9-11-12-------------------

-----------------9-10-12---------------------------

---------9-10-12-----------------------------------

-8-10-12-------------------------------------------


Mixolídio

----------------------------------------------12-14-15-

-------------------------------------12-13-15----------

----------------------------11-12-14-------------------

-------------------10-12-14----------------------------

----------10-12-14-------------------------------------

-10-12-14----------------------------------------------


Eólio

----------------------------------------------14-15-17-

-------------------------------------13-15-17----------

----------------------------12-14-16-------------------

-------------------12-14-16----------------------------

----------12-14-15-------------------------------------

-12-14-15----------------------------------------------


Lócrio

----------------------------------------------15-17-19-

-------------------------------------15-17-19----------

----------------------------14-16-17-------------------

-------------------14-16-17----------------------------

----------14-15-17-------------------------------------

-14-15-17----------------------------------------------



tapping facil para você começar:



e--12p5h8h12p5h8h12p5h8h12...--------------------------

B----------------------------12p5h8h12p5h8h12p5h8h12...

G------------------------------------------------------

D------------------------------------------------------

A------------------------------------------------------

E------------------------------------------------------





e------------------------------------------------------

B-12p5h8h12p5h8h12p5h8h12...---------------------------

G--------------------------12p5h8h12p5h8h12p5h8h12...--

D------------------------------------------------------

A------------------------------------------------------

E------------------------------------------------------




depois, qdo estiver legal...



e------------------------------------------------------

B-12p5h8h12p5h8h12p5h8h12p5h8h13p5h8h13p5h8h13p5h8h13p5

G------------------------------------------------------

D------------------------------------------------------

A------------------------------------------------------

E------------------------------------------------------





e------------------------------------------------------

B-h7h10p5h7h10p5h7h10p5h7h10p5h7h12p5h7h12p5h7h12p5h8h12

G------------------------------------------------------

D------------------------------------------------------

A------------------------------------------------------

E------------------------------------------------------


Taca um bom ganho na distorção, talvez um compressor

se achar necessário e vai treinando para soltar bem os dedos.






Two Hands


e------------------------------------------------------

B------------------------------------------------------

G--5-8-5-12t-(2x)-5-8-5-13t-(2x)--3-7-3-12t-(2x)-3-7-3-13t-(2x)-

D------------------------------------------------------

A------------------------------------------------------

E------------------------------------------------------



T= dedo ai pra você treinar<pre>

e------------------------------------------------------

B------------------------------------------------------

G--1-5-1-12t-(2x)-1-5-1-10t-(2x)---------------------------

D------------------------------------------------------

A------------------------------------------------------

E------------------------------------------------------





IRON MAIDEN....solos do Dave Murray...ehehehhee

vi uma video aula com o adrian smith e tinha isso aqui:



e------------------------------------------------------

B-5h6p5h6p5h6-5h7p5h7p5h7-5h8p5h8p5h8------------------

G------------------------------------------------------

D------------------------------------------------------

A------------------------------------------------------

E------------------------------------------------------



faz isso varias vezes em varias partes do braço...

e etc...ai você treina todos os dedos...

Eh legal treinar essa variação do ex do Dave Murray:


e------------------------------------------------------

B---5h7h8p7p5h7h8p7p5--ou 5h6h8p6p5...-----------------

G------------------------------------------------------

D------------ou uns cromáticos-------------------------

A------------------------------------------------------

E------2h3h4p3p2...------------------------------------

E esse exercício (usa a escala q você quiser, essa é a

penta de Am)


e-------------------------5h8p5------------------------

B---------------------5h8-------8p5--------------------

G-----------------5h7---------------7p5----------------

D-------------5h7-----------------------7p5------------

A---------5h7-------------------------------7p5--------

E-----5h8---------------------------------------8p5h8...

acho q com isso você abrange todas as possibilidades. Se quiser

inventar mais, começa a fazer uns licks (inventa na hora)

de ligados emendados em bends ou slides e coisas do tipo

LIGADURAS:

e--------------------------------------------------10h12p10

B--------------------------------------------5h8h5---------

G---------------------------------6h9p6--------------------

D----------------------------5h7p5-------5h7---------------

A---------------5h7p5-5h7p5--------------------------------

E--5h7p5-5h7p5---------------------------------------------



e|-----------------------------

B|-----------------------------

G|----------------------7h9h10-

D|---------------7h9h10--------

A|--------7h8h10---------------

E|-7h8h10----------------------



e|-----------------------------

B|-----------------------------

G|-10p9p7----------------------

D|--------10p9p7---------------

A|---------------10p8p7--------

E|----------------------10p8p7-


e|-------------------5h7----------------------------

B|--------------5h7------------------------------------

G|---------5h7-----------------------------------------

D|---5h7--------------------5h7---------------------5h7-

A|----------------------5h7-------------5h7---5h7------

E|-------------------------------5h7-------------------


e|-----------------------7p5-----------------------------

B|-------------------7p5--------------------------------

G|---7p5------------------------------------------------

D|---------7p5---7p5-------------------------7p5--------

A|----------------------------7p5---7p5---------------7p5-

E|-------------------------------------7p5--------------

Desce e sobe escalas com pull offs e hamer ons:

e--------------------3h5p3--------------------------------

B---------------3h5h6------6p5p3--------------------------

G----------2h4h5----------------5p4p2---------------------

D-----2h3h5--------------------------5p3p2----------------

A--3h5------------------------------------5p3p2-----2h3---

E----------------------------------------------5p3h5------


( escala natural de C)






ARPEJOS:

e-------------7-12-7---------------------------------------

B-----------8--------8-----------------------------------

G---------9------------9---------------------------------

D-------9----------------9-------------------------------

A--7-10--------------------10-7------------------------

E------------------------------------------------------




-12-13-12-10----------------------10-12-13-12-10---------

-------------13-12-10----10-12-13------------------------

----------------------13---------------------------------

---------------------------------------------------------

---------------------------------------------------------

---------------------------------------------------------

(Stratosphere -Stratovarius)


------13-14-13-10------------------------------------------

------------------14-12-10---------------------------------

---------------------------13-11-10------------------------

------------------------------------12-11---9--------------

----------------------------------------------12-11-9-8----

-----------------------------------------------------------

(Far Beyond the Sun - Malmsteen)




e------------------------------------------------------

B------------------------------------------------------

G------------------------------------------------------

D-7-------------7-------------7------------------------

A-5-5-5-5-5-5-5-5-5-5-5-5-5-5-5------------------------

E------------------------------------------------------



palheta assim: VVVVVV^^^^^^VVVVVV^^^^^^VVVVV


e-----1---------------------2-2---------------------3-3

B-------2-----------------3-----3-----------------4----

G---------3-------------4---------4-------------5------

D-----------4---------3-------------5---------4--------

A-------------3-----2-----------------4-----3----------

E---------------2-1---------------------3-2------------


E vai aumentando ate nao poder mais




ABERTURA DOS DEDOS:


e--------------------------1-6---------------------------

B----------------------1-6------1-6------------------------

G------------------1-6--------------1-6-------------------

D-------------1-6-----------------------1-6----------------

A--------1-6--------------------------------1-6------------

E---1-6-----------------------------------------1-6---------




e-------------13-----------13--------------10-----------10--

B---------12-----------11--------------11-------------12----

G-----11-----------12--------------12--------------11-------

D--10-----------10--------------13--------------13----------

A-----------------------------------------------------------

E-----------------------------------------------------------

vai fazendo isso, depois vai indo pra tras no braço.




-------------------------------------------------------

-------------------------------------------------------

-------------------------------------------------------

-------------------------------------------5-6-7-8-----

------------------------3-4-5-6-6-5-4-3----------------

--0-1-2-3-4-4-3-2-1------------------------------------





esse e massa e ainda envolve pentatonica!

e|-----------------------------------------------------5-

b|-----------------------------------------5---5-8-5-8---

g|-----------------------------5---5-7-5-7---7-----------

d|-----------------5---5-7-5-7---7-----------------------

a|-----5---5-7-5-7---7-----------------------------------

E|-5-8---8-----------------------------------------------

parece [email protected]#$%, mas e facinho de pegar!






e------------------------------------------------------

B---------------------------------------------9-11-10-12

G--------------------------8-10-9-11-------------------

D---------7-9-8-10-------------------7-9-8-10----------

A------------------6-8-7-9-----------------------------

E-5-7-6-8----------------------------------------------



sobe assim até a mi, depois vai descendo

esse aí é quebra dedo hehe



e8-5-7-8-10-7-8-10-12-8-110-12-13-10-12-13-15-12-13-15-17-13-15-1 7-19- 15-17-19-20---



também tem esse pra swep picking


e-------------/12-\15-/12---------------------------------------

B----------/13-----------\13---------------------------------

G-------/12-----------------\12------------------------------

D----/14-----------------------\14---------------------------

A-/15-----------------------------\15------------------------

E------------------------------------------------------




obs: / = palhetada pra baixo e \= palhetada pra cima





e------------------------------------------------------

B------------------------------------------------------

G---------------------------------------4-----4-5---4------

D---------------4-----4-5---4-5-7-4-5-7---5-7-----7---5-7-4-5--------- -

A---3-5-7-3-5-7---5-7-----7-------------------------------------

E------------------------------------------------------





D---------2-3--------------

A-----2-5-----5-2----------

E---3---------------3------etc......










e-------12-17p12----------------------------------------------

B-----13--------13-----------------------------------------

G---14------------14---------------------------------------

D------------------------------------------------------

A------------------------------------------------------

E------------------------------------------------------



tente fazer isso o mais rapido possivel....



também tem a menor harmonica(minha predileta)


e--------------------------------5-6-8--------------------

B--------------------------4-7-8--------------------------

G--------------------3-5-7--------------------------------

D--------------4-5-7--------------------------------------

A--------3-5-6--------------------------------------------

E--3-5-6--------------------------------------------------



faça ida e volta.....


e------------------------------------------------------

B--------------------------4-7-8--------------------------

G--------------------3-5-7--------------------------------

D--------------4-5-7--------------------------------------

A--------3-5-6--------------------------------------------

E--3-5-6--------------------------------------------------





----------5-4----------------------------------------- ---------

--------------7-5------------------------------------------ ----

------------------7-6-4----------------------------------------

------------------------7-6-4-------------------4-5------------

---- --------------------------7-5-4------ 4-5-7-----4-5-7------

------------------------------------7-5-7------ -----------7-5--




--------------5-2--------------------------------- --------

----------3-2---------------------------------------------

--------2-------------------------------------------------

---------- ------------------------------------------------

-------------------- --------------------------------------

-----3------------------------ ----------------------------


Faça o mais rápido e limpo possível. Começe devagar... Use metronomo lento e vá aumentando...



acho que é em cima dessa base, qualquer coisa me corrijam...


C#m

-------------------------------------------------- ----

------------------------------------------------------

--13t--6 p--9h--13t--6p--9h--13t--6p--9h--13t--6p--9h--

---------------------- --------------------------------

------------------------------------ ------------------

-------------------------------------------------- ----


A

------------------------------------------------------

--- ---------------------------------------------------

--14t--6p--9h--14 t--6p--9--14t--6p--9h--14t--6p--9h---

------------------------------- -----------------------

--------------------------------------------- ---------

------------------------------------------------------


B x2

--------------------------------------------------------

-------- ------------------------------------------------

--16t--8p--11h--16t- -8p--11h--16t--8p--11h--16t--8p--11h

-------------------------------- ------------------------

-------------------------------------------- ------------

--------------------------------------------------------





esse lick é muito usado para finalizar as musicas ao vivo do van halen:


-------------17--12p15-------------17t--12p15--

--17t--12p1 5------------17t--12p15-------------




(2º corda, si)-

4h-5h-7-12t-7p-5p-4h-5h-7-12t-7p-5p-4h-5h-7-12t-7p-5p-4h-5h7-12t


(2º corda)

7p-5p-4h-5h-7-14t-7p-5p-4h-5h-7-14t-7p-5p-4h-5h-7-16t-7p-5p-4h -5h-7-17t-


(2º corda)

7p-5p-4h-5h-7-19t-7p-5p-4h-5h-7-12t-7p-5p-4h-5h-7-12t-7p-5p-4h -5h-7-12t-


(2º corda)

7p-5p-4h-5h-7-14t----------4h-5h-7-12t-


esse é um lick do wander taffo...






e|------------------------------4-3-2-------------------------------|

B|------------------------1-2-3-------3-2-1-------------------------|

G|------------------4-3-2-------------------2-3-4-------------------|

D|------------1-2-3-------------------------------3-2-1-------------|

A|------4-3-2-------------------------------------------2-3-4-------|

E|1-2-3-------------------------------------------------------3-2-1-|



Esse exercício é muito bom para treinar a agilidade





ai vo manda o meu:

Escala Natural F


-------------------------------3-5-7---

------------------------ -3-5-6---------

-------------------2-4-5---------------

------------ -2-3-5---------------------

-------2-3-5---------------------------

-1-3-5---------------------------------



Escala Natural G


-------------------------------5-7-8---

------------------------ -5-6-8---------

-------------------4-5-7---------------

------------ -3-5-7---------------------

-------3-5-7---------------------------

-3-5-7---------------------------------


e mais um:

Escala Natural A


--------------------------------7-8-10--

----------------------- --6-8-10---------

-------------------5-7-9----------------

--------- ----5-7-9----------------------

-------5-7-8------------------------- ---

-5-7-8----------------------------------



Escala Natural B


-------------------------------------8-10-12

------------------- ----------8-10-12--------

----------------------7-9-10--------------- -

---------------7-9-10-----------------------

--------7-8-10------- -----------------------

-7-8-10-------------------------------------



e mais uns:

Escala Natural C


------------------------------------------10-12-13

------------- --------------------10-12-13---------

-------------------------9-10-1 2------------------

-----------------9-10-12------------------------- -

---------8-10-12----------------------------------

-8-10-12------- -----------------------------------



Escala Natural D


----------------------------------------------12-13-15

--------- ----------------------------12-13-15---------

----------------------- -----10-12-14------------------

-------------------10-12-14---------- -----------------

----------10-12-14--------------------------------- ---

-10-12-13---------------------------------------------



Escal a Natural E


----------------------------------------------13-15-17

--------- ----------------------------13-15-17---------

----------------------- -----12-14-16------------------

-------------------12-14-15---------- -----------------

----------12-14-15--------------------------------- ---

-12-13-15---------------------------------------------

ESCALA PENTATÔNICA E PENTABLUES

I


---------------------5-7------

-----------------5-7- ---------

-------------4-6--------------

---------4-7--------------- ---

-----4-7----------------------

-5-7--------------------------



II


---------------------5-7------

-----------------5-8--------- -

-------------4-7--------------

---------5-7------------------

--- --5-7----------------------

-5-7--------------------------



III


---------------------5-8------

-----------------6-8----------

---- ---------5-7--------------

---------5-7------------------

-----5-8-- --------------------

-5-8--------------------------



IV


------ ---------------5-7------

-----------------5-7----------

------------ -4-7--------------

---------4-7------------------

-----5-7---------- ------------

-5-7--------------------------



V


--------------- ------5-8------

-----------------5-8----------

-------------5-7----- ---------

---------5-7------------------

-----5-7------------------- ---

-5-8--------------------------



VI


----------------------- --5-8---

---------------------5-8-------

---------------5-7-8------- ----

-----------5-7-----------------

-----5-6-7---------------------

-5-8---------------------------



VII


------------------------ -5-7-8---

---------------------5-7---------

---------------4-5-6---- ---------

-----------4-7-------------------

-------4-7-------------- ---------

-5-7-8---------------------------



VIII


------------ -------------5-6-7---

---------------------5-8---------

------------ -----4-7-------------

-----------5-7-8-----------------

-------5-7-- ---------------------

-5-6-7---------------------------



IX


-- -----------------------5-6-9---

---------------------7-9---------

-- ---------------6-8-------------

-----------6-7-8-----------------

-- -----6-9-----------------------

-5-6-9---------------------------



X


-------------------------5-7---

-------------------5-6-7------ -

---------------4-7-------------

-----------4-7-----------------

- ----5-7-8---------------------

-5-7---------------------------



E SCALA SIMÉTRICA

I


---------------------------------5-6-8---

----------- ----------------5-7-8---------

---------------------5-6-8------------ ---

-------------4-5-7-8---------------------

-------4-6-7---------- -------------------

-5-6-8-----------------------------------



II


-------------------------------4-5-7---

------------------------- 4-6-7---------

-------------------4-5-7---------------

------------- 4-6-7---------------------

-------5-6-8---------------------------

- 5-7-8---------------------------------



III


------------------- ------5-7-9---

---------------------6-8---------

---------------4-6- 8-------------

-----------5-7-------------------

-----4-6-8--------- --------------

-5-7-----------------------------



Diminutas


-- ---------------5-8------

-------------4-7----------

-----------5---- ----------

-------4-7----------------

-----6--------------------

-5 -8----------------------



Aumentadas


-------------5-9----------

-----------6--------------

---------6----------------

-------7---- --------------

-----8--------------------

-5-9----------------------






e|------------------------------------1-3-5--------------------------- -----

B|-----------------------------1-3-5---------5-3-1------------- -------------

G|----------------------1-3-5-----------------------5-3 -1--------------------

D|---------------1-3-5------------------------ -------------5-3-1--------------

A|--------1-3-5--------------------- ------------------------------5-3-1--------

E|-1-3-5----------------- ------------------------------------------------5-3-1-


Esse é bom para treinar abertura dos dedos,

mas pode ser em outro lugar do braço se você

quiser mas assim é mais difícil e eficiente
Voltar ao Topo
Ver o perfil de Usuários Enviar Mensagem Particular
maxfrage



Registrado em: Sexta-Feira, 8 de Julho de 2005
Mensagens: 73

MensagemEnviada: Sáb Jul 16, 2005 10:32 pm    Assunto: Responder com Citação

Na resposta acima mandei varios exercicios achei esse topico muito bom tenho uns lances da hora.

agora vou por umas escalas.....
Escala Maior (T-2M-3M-4j-5j-6M-7M) Exemplos em F# (F#-G#-A#-B-C#-D#-F)
(T,T,s,T,T,T)->T=tom s=semi-tom

E|---------------------------1-2-4-
B|-----------------------2-4-------
G|-----------------1-3-4-----------
D|-----------1-3-4-----------------
A|-----1-2-4-----------------------
E|-2-4-----------------------------

E|-----------------------------4-6-7-
B|-----------------------4-6-7-------
G|-----------------3-4-6-------------
D|-----------3-4-6-------------------
A|-------4-6-------------------------
E|-4-6-7-----------------------------

E|-----------------------------6-7-9-
B|-----------------------6-7-9-------
G|-------------------6-8-------------
D|-------------6-8-9-----------------
A|-------6-8-9-----------------------
E|-6-7-9-----------------------------

E|------------------------------------9-11-
B|----------------------------9-11-12------
G|--------------------8-10-11--------------
D|-------------8-9-11----------------------
A|------8-9-11-----------------------------
E|-9-11------------------------------------

E|-------------------------------------------11-13-14-
B|----------------------------------11-12-14----------
G|-------------------------10-11-13-------------------
D|-------------------11-13----------------------------
A|----------11-13-14----------------------------------
E|-11-13-14-------------------------------------------
Escala Pentatônica Maior (T-2M-3M-5j-6M-) Exemplos em F# (F#-G#-A#-C#-D#)
(T,T,2T+s,T)->T=tom s=semi-tom

E|---------------------2-4-
B|-----------------2-4-----
G|-------------1-3---------
D|---------1-4-------------
A|-----1-4-----------------
E|-2-4---------------------

E|---------------------4-6-
B|-----------------4-7-----
G|-------------3-6---------
D|---------4-6-------------
A|-----4-6-----------------
E|-4-6---------------------

E|---------------------6-9-
B|-----------------7-9-----
G|-------------6-8---------
D|---------6-8-------------
A|-----6-9-----------------
E|-6-9---------------------

E|--------------------------9-11-
B|---------------------9-11------
G|----------------8-11-----------
D|-----------8-11----------------
A|------9-11---------------------
E|-9-11--------------------------

E|-------------------------------11-14-
B|-------------------------11-14-------
G|-------------------11-13-------------
D|-------------11-13-------------------
A|-------11-13-------------------------
E|-11-14-------------------------------
Escala De Blues (T-3m-4j-4+-5j-7m) Exemplos em F (F-G#-A#-B-C-D#)
(T+s,T,s,s,T+s)->T=Tom s=semi-tom

E|-------------------------1-4-
B|---------------------1-4-----
G|---------------1-3-4---------
D|-----------1-3---------------
A|-----1-2-3-------------------
E|-1-4-------------------------

E|-------------------------4-6-7-
B|---------------------4-6-------
G|---------------3-4-5-----------
D|-----------3-6-----------------
A|-------3-6---------------------
E|-4-6-7-------------------------

E|-------------------------6-7-8-
B|---------------------6-9-------
G|-----------------5-8-----------
D|-----------6-8-9---------------
A|-------6-8---------------------
E|-6-7-8-------------------------

E|-------------------------------8-11-
B|-----------------------9-11-12------
G|------------------8-10--------------
D|-----------8-9-10-------------------
A|------8-11--------------------------
E|-8-11-------------------------------

E|-------------------------------------11-13-
B|----------------------------11-12-13-------
G|----------------------10-13----------------
D|----------------10-13----------------------
A|-------11-13-14----------------------------
E|-11-13-------------------------------------
A escala pentatônica tem 5 notas s/ a blue note e 6
notas com a mesma.
Montagem da Penta Maior:

I II III IV V VI
1 1 1,5 1 1,5

Montagem da Penta Menor:

I II III IV V VI
1,5 1 1 1,5 1

A blue note da penta maior é a 3b e a da penta menor
é a 4#, ou seja:
em relação à nota "A", teremos a nota "C" para penta
maior e a nota "D#" para penta menor, logo, somando
as idéias teremos:

Penta maior em "A"; (blue note)

A B C C# E F# A
1 1/2 1/2 1,5 1 1,5

Penta menor em "A" (blue note)

A C D D# E G A
1,5 1 1/2 1/2 1,5 1

E|--------------------5-8--||
B|----------------5-8------||
G|------------5-7----------||
D|--------5-7--------------||
A|----5-7------------------||
E|5-8----------------------||

use em outro lugar do braço e terá outro tom!

E|--------------------5-8--||
B|----------------5-8------||
G|------------5-7----------||
D|--------5-7--------------||
A|----5-7------------------||
E|5-8----------------------||

use em outro lugar do braço e terá outro tom!

espero q gostem todos ai contribuam
Voltar ao Topo
Ver o perfil de Usuários Enviar Mensagem Particular
DrigoSPA



Registrado em: Segunda-Feira, 18 de Julho de 2005
Mensagens: 18

MensagemEnviada: Qua Jul 20, 2005 4:52 pm    Assunto: Responder com Citação

Está sendo útil pra mim demais. Já acabei de imprimir um exercício lá no início, e na hora do almoço já comecei a treinar, muito legal, sou fraco ainda mas curti bem, vou treinar treinar treinar e poder dizer que aprendi com vcs.

Obrigado mesmo, vou continuar acompanhando aqui.

Wink
Voltar ao Topo
Ver o perfil de Usuários Enviar Mensagem Particular
pisicopato



Registrado em: Sexta-Feira, 11 de Junho de 2004
Mensagens: 119

MensagemEnviada: Qua Jul 20, 2005 10:08 pm    Assunto: Responder com Citação

powha... eu tava pensando em imprimir aqueles exercicios ali em cima..
mas deu 20 paginas !!!!!!
=/

mas valew ae pessoas..
Voltar ao Topo
Ver o perfil de Usuários Enviar Mensagem Particular
moroni



Registrado em: Quinta-Feira, 26 de Mai de 2005
Mensagens: 16

MensagemEnviada: Seg Ago 01, 2005 10:46 pm    Assunto: adiquirindo agilidade Responder com Citação

aew dica simples para velocidade;
faiz o ex do 1,2,3,4 e|----------|----------|
B|----------|---------|
G|----------|---------|
D|----------|---------| vai até a mizinha e volta tudo
A|----------|-1-2-3-4-| ao contrario
E|-1-2-3-4-|---------- |
isso usando metronomo (c num tivé baxa guitar pró q tem lá) i vai aumentando a velocidade conforme for ficado + facil !

ai ta meio tosco mas da certo!!

ai tá meu msn c tiver duvidas; [email protected]
disposto a ajudar!
Voltar ao Topo
Ver o perfil de Usuários Enviar Mensagem Particular
Mostrar os tópicos anteriores:   
Novo Tópico   Responder Mensagem    Fórum Cifras - Índice do Fórum -> Guitarra Todos os horários são GMT - 1 Hours
Ir à página 1, 2, 3 ... 13, 14, 15  Próximo
Página 1 de 15

 
Ir para:  
Enviar Mensagens Novas: Proibído.
Responder Tópicos Proibído
Editar Mensagens: Proibído.
Excluir Mensagens: Proibído.
Votar em Enquetes: Proibído.


Powered by phpBB © 2001, 2012 phpBB Group