Fórum Cifras - Índice do Fórum
FAQFAQ PesquisarPesquisar MembrosMembros GruposGrupos RegistrarRegistrar  
PerfilPerfil Entrar e ver Mensagens ParticularesEntrar e ver Mensagens Particulares EntrarEntrar 

Quem sabe dá a dica
Ir à página Anterior  1, 2, 3 ... , 13, 14, 15  Próximo
 
Novo Tópico   Responder Mensagem    Fórum Cifras - Índice do Fórum -> Guitarra
Exibir mensagem anterior :: Exibir próxima mensagem  
Autor Mensagem
maxfrage



Registrado em: Sexta-Feira, 8 de Julho de 2005
Mensagens: 73

MensagemEnviada: Seg Mai 28, 2007 8:13 pm    Assunto: Responder com Citação

awe galera andei sumido lembra q eu coloquei um monte de dicas de guitarra para vcs pois então voltei a ativa bom o q quiserem estou ai para ajudar vlw espero q gostem do q andei passando vlw cifras.com vlw osquinha
Voltar ao Topo
Ver o perfil de Usuários Enviar Mensagem Particular
Markrjs



Registrado em: Sábado, 8 de Abril de 2006
Mensagens: 6

MensagemEnviada: Qua Jun 27, 2007 12:18 pm    Assunto: Responder com Citação

Informação nunca é demais amigos.
Mais aconselho uma coisa, existem pessoas aqui que estão numa iniciação que observa as numerações das escalas de forma errada.
Seria interresante dizer a elas onde esta cada numeração de escala no braço de seu instrumento? ou não?

Obrigado
Voltar ao Topo
Ver o perfil de Usuários Enviar Mensagem Particular
.Guitar.Man.



Registrado em: Domingo, 25 de Fevereiro de 2007
Mensagens: 500

MensagemEnviada: Qui Nov 01, 2007 11:49 am    Assunto: Responder com Citação

Código:
E |-----------------|-----------------|-----------------|-5-----------5---|
B |-----------------|---------5-------|-----5-----5-7-8-|---7-8-5-7-8---7-|
G |-------4---------|---4-6-7---6-7-4-|-6-7---6-7-------|-----------------|
D |-4-5-7---5-7-4-5-|-7---------------|-----------------|-----------------|
A |-----------------|-----------------|-----------------|-----------------|
E |-----------------|-----------------|-----------------|-----------------|

|---5-7-9-10-9----12-|-9----10------|
|-8------------10----|---10-10------|
|--------------------|--------------|
|--------------------|--------------|
|--------------------|--------------|
|--------------------|--------------|


Eu me baseei nos guitarristas de Hard-rock pra fazer esse exercício.
você percebe muito esse tipo de fraseado nos solos Heavy (tipo um moto perpétuo).

Estilo Malmsteen (clássico).


Código:
E |---------6-------|---------9-6-----|-----------13-9-------|----------|
B |-------6---6-----|-------6-----6---|--------11------11----|----------|
G |---3-6-------6-3-|---3-6---------6-|---6-10------------10-|----------|
D |-5---------------|-5---------------|-8--------------------|-8--------|
A |-----------------|-----------------|----------------------|----------|
E |-----------------|-----------------|----------------------|----------|


Moto Perpétuo:
Composição ou exercício que se desenvolve em andamento rápido, com notas de valor igual, sobre um só motivo, repetido sem interrupção.
_____________________________________________________________

Esse é em cima do modo eólio (lá menor, sexta de Dó).
Está na ordem de 4. Por exemplo:
A-B-C-D depois volta e recomeça pelo B-C-D-E.



Código:
E |-------------|-------------|-------------|-------------|-------------|
B |-------------|-------------|-------------|-------------|-------------|
G |-------------|-------------|-------------|-------------|-------------|
D |-------------|-------------|-------------|----------5--|-------5--7--|
A |----------5--|-------5--7--|----5--7--8--|-5--7--8-----|-7--8--------|
E |-5--7--8-----|-7--8--------|-8-----------|-------------|-------------|

|-------------|-------------|-------------|-------------|-------------|
|-------------|-------------|-------------|-------------|----------6--|
|-------------|----------5--|-------5--7--|----5--7--9--|-5--7--9-----|
|----5--7--9--|-5--7--9-----|-7--9--------|-9-----------|-------------|
|-8-----------|-------------|-------------|-------------|-------------|
|-------------|-------------|-------------|-------------|-------------|

|-------------|-------------|-----------7-|-------7--8--|----7--8----|
|-------6--8--|----6--8--10-|-6--8--10----|-8--10-------|-10---------|
|-7--9--------|-9-----------|-------------|-------------|------------|
|-------------|-------------|-------------|-------------|------------|
|-------------|-------------|-------------|-------------|------------|
|-------------|-------------|-------------|-------------|------------|

|-10--7------|
|------------|
|------------|
|------------|
|------------|
|------------|



E |-10--8--7----|----8--7-----|----7--------|-------------|------------|
B |-------------|-10-------10-|-8----10--8--|-6-10--8--6--|----8--6----|
G |-------------|-------------|-------------|-------------|-9----------|
D |-------------|-------------|-------------|-------------|------------|
A |-------------|-------------|-------------|-------------|------------|
E |-------------|-------------|-------------|-------------|------------|

|-------------|-------------|-------------|-------------|-----------|
|-------6-----|-------------|-------------|-------------|-----------|
|-9--7-----9--|-7--5--9--7--|-5-----7--5--|-------5-----|-----------|
|-------------|-------------|----9--------|-9--7-----9--|-7--5------|
|-------------|-------------|-------------|-------------|-----------|
|-------------|-------------|-------------|-------------|-----------|

|-------------|-------------|-------------|-------------|-------------|
|-------------|-------------|-------------|-------------|-------------|
|-------------|-------------|-------------|-------------|-------------|
|-9--7--5-----|-7--5--------|-5-----------|-------------|-------------|
|----------8--|-------8--7--|----8--7--5--|-8--7--5-----|-7--5--------|
|-------------|-------------|-------------|----------8--|-------8--7--|

|-------------|
|-------------|
|-------------|
|-------------|
|-5-----------|
|----8--7--5--|



Tem que fazer esse exercício em todos os outros modos.
________________________________________________________

Esse exercício eu coloquei na primeira corda mas tem q ser feito, também, em todas as outras cordas.


Código:
E |-12--10--8--7--|-8--10--7--8--|-10--8--7--5--|-7--8--5--7--|-8--7--5--3--|
B |---------------|--------------|--------------|-------------|-------------|
G |---------------|--------------|--------------|-------------|-------------|
D |---------------|--------------|--------------|-------------|-------------|
A |---------------|--------------|--------------|-------------|-------------|
E |---------------|--------------|--------------|-------------|-------------|

|-5--7--3--5--|-7--5--3--2--|-3--5--2--3--|
|-------------|-------------|-------------|
|-------------|-------------|-------------|
|-------------|-------------|-------------|
|-------------|-------------|-------------|
|-------------|-------------|-------------|


Editado pela última vez por .Guitar.Man. em Seg Nov 05, 2007 2:29 pm, num total de 2 vezes
Voltar ao Topo
Ver o perfil de Usuários Enviar Mensagem Particular
black-seven



Registrado em: Terça-Feira, 17 de Julho de 2007
Mensagens: 42

MensagemEnviada: Sex Nov 09, 2007 5:25 pm    Assunto: ...,,, Responder com Citação

ae galera a algum tempo eu postei alguma coisa sobre palhetada vertical (ou circular picking) e tomei como referencia E du ardanuy. a tecnica eh boa msm, mas nos ultimos 5 meses eu tenho me voltado a treinar mais a velocidade, e nao to conseguindo tocar muito rapido usando a circular picking. Então cheguei a conclusão de que pra ganhar mais velocidade, mas nao perder a agilidade da circular picking, resolvi desnvolver uma palhetada q eh simplesmente uma mescla entre a palhetada mais tradicional: mexendo mais o pulso, e a circular: mexendo apenas os dedos.

Ficou assim oh: na alternada eu uso mais os movimentos do punho, e no sweep eu uso os dedos... ficou bom pakas!!!!

qd puder vou postar link de video pra mostrar direitinho....
Voltar ao Topo
Ver o perfil de Usuários Enviar Mensagem Particular
.Guitar.Man.



Registrado em: Domingo, 25 de Fevereiro de 2007
Mensagens: 500

MensagemEnviada: Sex Nov 09, 2007 8:26 pm    Assunto: Responder com Citação

2 licks simples em cima do estilo de Tony Iommi.



Código:
e|-----8---5-----8--5------8--5-------8---5--------10---|
B|-5----------5---------5----------5-----------5----------|
G|----------------------------------------------------------|
D|----------------------------------------------------------|
A|----------------------------------------------------------|
E|----------------------------------------------------------|


e|-------10--8---------10---8---------10---8----------10---8--------13-|
B|--10-----------10--------------10--------------10-------------10------|
G|--------------------------------------------------------------------------|
D|--------------------------------------------------------------------------|
A|--------------------------------------------------------------------------|
E|--------------------------------------------------------------------------|


_____________________________________________________________
Pequeno exemplo de Blues/jazz

Código:
e|-8--9--12--8--9--12--8--9--12--9--8-------------------------------------
B|-------------------------------------------10----------10-----------------
G|------------------------------------------------11--9--9------------------
D|-------------------------------------------------------------------------------
A|-------------------------------------------------------------------------------
E|--------------------------------------------------------------------------------

_________________________________________________________________

Esse fraseado é outro q se percebe muito nos solos de Yngwie Malmsteen.
Ele puxou da música clássica.
A dificuldade desse exercício tá na troca de posição, q tem q ser já com os dedos montados.
Tem q começar bem lento, percebendo a melodia/harmonia desse exemplo.


Código:
E |----12-8----12-8----12-|-8----12-8----13-8----|-13-8----13-8----13-8-|
B |-10------10------10----|---10------10------10-|------10------10------|
G |-----------------------|----------------------|----------------------|
D |-----------------------|----------------------|----------------------|
A |-----------------------|----------------------|----------------------|
E |-----------------------|----------------------|----------------------|

|----10-7---10-7---10-|-7---10-7---12-8----|-12-8----12-8----12-8-|
|-10------8------8----|---8------8------10-|------10------10------|
|---------------------|--------------------|----------------------|
|---------------------|--------------------|----------------------|
|---------------------|--------------------|----------------------|
|---------------------|--------------------|----------------------|

|----8-5---8-5---8-|-5---8-5---10-7---|-10-7---10-7---10-7-|---7-3---7-3---7-|
|-10-----6-----6---|---6-----6------8-|------8------8------|-8-----5-----5---|
|------------------|------------------|--------------------|-----------------|
|------------------|------------------|--------------------|-----------------|
|------------------|------------------|--------------------|-----------------|
|------------------|------------------|--------------------|-----------------|

|-3---7-3---8-5---|-8-5---5---------|-----------------|---------------|
|---5-----5-----6-|-----8---8-6-8-6-|-5-6-5---5-------|---------------|
|-----------------|-----------------|-------7---7-5-7-|-5---5---------|
|-----------------|-----------------|-----------------|---7---7-5-7---|
|-----------------|-----------------|-----------------|---------------|
|-----------------|-----------------|-----------------|---------------|


__________________________________________________________

Estudo

Código:
E |---5-7-8-7-5-|---4-5-7-5-4-|---5-7-8-7-5-|---4-5-7-5-4-|-------------|
B |-------------|-------------|-------------|-------------|---5-6-8-6-5-|
G |-------------|-------------|-------------|-------------|-------------|
D |-------------|-------------|-------------|-------------|-------------|
A |-0-----------|-------------|-0-----------|-------------|-0-----------|
E |-------------|-0-----------|-------------|-0-----------|-------------|

|-------------|-------------|-------------|-------------|-------------|
|---3-5-6-5-3-|-----3-5-3---|-------------|---------3-5-|---3-5-6-8-6-|
|-------------|---5-------5-|---4-5-7-5-4-|-----4-5-----|-------------|
|-------------|-------------|-------------|---7---------|-0-----------|
|-------------|-0-----------|-------------|-0-----------|-------------|
|-0-----------|-------------|-0-----------|-------------|-------------|

|---------------|----------|
|---------------|----10----|
|-----5-9-10-12-|----9-----|
|---7-----------|----10----|
|-0-------------|-0--0-----|
|---------------|----------|


Tem a versão desse Estudo sem os baixos (exceto o baixo final q puxa o acorde), seria na ordem de 5, e a quinta nota sempre é a mais longa, e assim vai até o final.
Voltar ao Topo
Ver o perfil de Usuários Enviar Mensagem Particular
Diegows³



Registrado em: Quinta-Feira, 10 de Janeiro de 2008
Mensagens: 18

MensagemEnviada: Qua Mar 05, 2008 11:44 pm    Assunto: Responder com Citação

Perfeito (y)

mas tow tentando pegar a teoria primeiro pra tipo não tocar bem mas sem saber o que ta tocando \o o que acontecia comigo até um tempo UEwahe \o/
Voltar ao Topo
Ver o perfil de Usuários Enviar Mensagem Particular
black-seven



Registrado em: Terça-Feira, 17 de Julho de 2007
Mensagens: 42

MensagemEnviada: Qua Mar 12, 2008 6:00 pm    Assunto: Responder com Citação

eh.... mais o pior eh q se você não tem conhecimento teórico fica-se muito
limitado em termos de composição e improviso....
Voltar ao Topo
Ver o perfil de Usuários Enviar Mensagem Particular
.Guitar.Man.



Registrado em: Domingo, 25 de Fevereiro de 2007
Mensagens: 500

MensagemEnviada: Dom Mai 04, 2008 3:02 pm    Assunto: Responder com Citação

Código:
Um exercício de percepção (harmonia, composição).

|----------------------|----------------------|---------------------------|
|----------------------|----------------------|-------------5--8--5------|
|----------------------|------------4--7--4--|--5------5----------------|
|------------5--7--4--|--5-----5------------|------7--------------------|
|---------7------------|-----7---------------|---------------------------|
|--5--8---------------|----------------------|---------------------------|


|------------5--8--5--|--6-------|
|--6-----6-------------|----8----|
|-----7----------------|----------|
|----------------------|-----------|
|----------------------|-----------|
|----------------------|-----------|

Perceber (prever) as frases q vem depois.
[/code]
Voltar ao Topo
Ver o perfil de Usuários Enviar Mensagem Particular
JacksonLover



Registrado em: Quinta-Feira, 1 de Mai de 2008
Mensagens: 60

MensagemEnviada: Qua Jun 18, 2008 4:27 pm    Assunto: Responder com Citação

Código:
|----------------------|
|----------------------|
|----------------------|
|----------------------|     (x4)
|----------5--7--------|
|--5--8----------------|


|----------------------|
|----------------------|
|----------------------|
|----------------------|    (x4)
|----------5--8--------|
|--5--8----------------|


|----------------------|
|----------------------|
|----------------------|
|----------------------|    (x4)
|----------5--7--------|
|--5--8----------------|


|----------------------|
|----------------------|
|----------------------|
|----------------------|     (x4)
|----------5--7--------|
|--4--7----------------|
Voltar ao Topo
Ver o perfil de Usuários Enviar Mensagem Particular
thaizinha_



Registrado em: Terça-Feira, 15 de Julho de 2008
Mensagens: 1

MensagemEnviada: Sáb Jul 19, 2008 1:38 pm    Assunto: Responder com Citação

Geenteh eu naao seei nada disso ! Embarassed
eeu ganhei minha guitarra na teerça-feeirah ! Confused
o que eu façoo ?! Rolling Eyes
Voltar ao Topo
Ver o perfil de Usuários Enviar Mensagem Particular
Tijolo Elétrico
Super Moderador
Super Moderador


Registrado em: Terça-Feira, 11 de Janeiro de 2005
Mensagens: 1101

MensagemEnviada: Ter Jul 22, 2008 1:08 am    Assunto: Responder com Citação

thaizinha_ escreveu:
Geenteh eu naao seei nada disso ! Embarassed
eeu ganhei minha guitarra na teerça-feeirah ! Confused
o que eu façoo ?! Rolling Eyes


Você tem que acessar nossa sesão de tutoriais, Thai.

Arrow Uma porrada de tutoriais de violão e guitarra para iniciantes.
Arrow Aprendendo a ler tablaturas.

Qualquer dúvida pode mandar que aceito! ^^

bye...
Voltar ao Topo
Ver o perfil de Usuários Enviar Mensagem Particular
victor.h



Registrado em: Terça-Feira, 28 de Fevereiro de 2006
Mensagens: 1531

MensagemEnviada: Sáb Jul 26, 2008 6:32 pm    Assunto: Responder com Citação

vou passar uma dica de como se faz para dobrar guitarras

Esse método é muito utilizado por vario artistas como por exemplo metallica, consiste em uma guitarra fazer uma frase e outra fazer uma 3° acima ou 5° ou 8°, sendo assim se um fraseado é feito em Eólio por exemplo e sua nota natural é E e a frase tbm inicia por E, a outra fará em G, B ou E uma oitava abaixo:

Código:

gtr1                          gtr 2

|----------------------|-------------------------------
|----------------------|--------------------------------
|----------------------|----------------------------------
|-2-4-2----------5-5-2-|-9-10--9------------12--12-9-
|-----5-3/5-----5-5----|-----12-10/12------12-12----
|----------------------|------------------------------------


Outro exemplo é a música escape do metallica, só q nesse caso é feito numa unica guitarra:

Código:


|-----------------------------------------
|------------------0h1-0----1-0h1-0----
|------------------0h2-0----2-0h2-0-2-0
|-7---------------------------------3-2
|-0-0-0-0-0-0-0-0-------------------
|--------------------------------------
Voltar ao Topo
Ver o perfil de Usuários Enviar Mensagem Particular
ryden
Super Moderadora
Super Moderadora


Registrado em: Sexta-Feira, 28 de Julho de 2006
Mensagens: 1667
Localização: SP

MensagemEnviada: Sáb Ago 23, 2008 9:18 pm    Assunto: Responder com Citação

victor1valdes escreveu:
Aí....sei um jeito + facil de dobrar guitarras.....
estou falando ne sentido mr. bean da coisa ta ligado?rsrsrsrsrs


Esse tópico tem como intenção de ajudar alguém com alguma dica, exercícios, teorias e etc., e não para engraçadinhos ficarem fazendo piadinhas com o que ta escrito.
Se não vai colaborar com uma resposta que ajude prefira por não postar, pois tomaremos algumas medidas necessárias que serão discutidas.
E só por uma questão de respeito com o post do outro membro deletarei sua mensagem.
Caso não tenha lido as regras do fórum, por favor, leia.
_________________
Não se estresse com a festa - apenas se divirta! Mesmo se um detalhe der errado, o resto da noite ainda pode dar certo.
Voltar ao Topo
Ver o perfil de Usuários Enviar Mensagem Particular
MetalSchulz



Registrado em: Terça-Feira, 18 de Novembro de 2008
Mensagens: 6

MensagemEnviada: Qui Nov 20, 2008 11:08 pm    Assunto: Responder com Citação

Gostei muito de todos os exercícios.
Até me impressionei pois ganhei velocidade rapido.
Vale lembrar também da escala pentatônica, muito usada na música.
Se você é iniciante, tente isso:

Código:



 e |------------------------------------3--6--3-----------------------------------|
 B |-----------------------------3--6------------6--3-----------------------------|
 G |----------------------3--5--------------------------5--3----------------------|
 D |---------------3--5----------------------------------------5--3---------------|
 A |--------3--5------------------------------------------------------5--3--------|
 E |-3--6--------------------------------------------------------------------6--3-|



Acho que está tudo certinho.
Isso pode te ajudar a se familiarizar mais com a guitarra e suas notas e soltar mas os dedos.
Voltar ao Topo
Ver o perfil de Usuários Enviar Mensagem Particular
hameron



Registrado em: Domingo, 8 de Junho de 2008
Mensagens: 20

MensagemEnviada: Seg Dez 22, 2008 8:45 pm    Assunto: Through the Fire and Flames... ajudem-me,, Responder com Citação

Preciso de uma tablatura boa da música Through the Fire and Flames do DragonForce, se alguem tiver me passe por favorr


Vlwww fuii
Voltar ao Topo
Ver o perfil de Usuários Enviar Mensagem Particular
Mostrar os tópicos anteriores:   
Novo Tópico   Responder Mensagem    Fórum Cifras - Índice do Fórum -> Guitarra Todos os horários são GMT - 1 Hours
Ir à página Anterior  1, 2, 3 ... , 13, 14, 15  Próximo
Página 14 de 15

 
Ir para:  
Enviar Mensagens Novas: Proibído.
Responder Tópicos Proibído
Editar Mensagens: Proibído.
Excluir Mensagens: Proibído.
Votar em Enquetes: Proibído.


Powered by phpBB © 2001, 2012 phpBB Group