Fórum Cifras - Índice do Fórum
FAQFAQ PesquisarPesquisar MembrosMembros GruposGrupos RegistrarRegistrar  
PerfilPerfil Entrar e ver Mensagens ParticularesEntrar e ver Mensagens Particulares EntrarEntrar 

Come on in may kitchen - Blues Etílicos

 
Novo Tópico   Responder Mensagem    Fórum Cifras - Índice do Fórum -> Outros Ritmos
Exibir mensagem anterior :: Exibir próxima mensagem  
Autor Mensagem
Carit



Registrado em: Sábado, 10 de Setembro de 2005
Mensagens: 2

MensagemEnviada: Sex Fev 03, 2006 9:32 am    Assunto: Come on in may kitchen - Blues Etílicos Responder com Citação

O pessoal aki que curtir blues poderia me ajudar a tirar o resto dessa música? Empaquei em um certo trecho, pois ainda não consigo tirar de ouvido mais de uma nota por vez. Aqui vai até onde eu consegui:


e|-------------2-3-5~----5-5s3-2~----5-5-4-3~-------------7-------|
B|--3---------3-----------5-5s3--------5-5-4-----------3-6-----6s3---|
G|---2--------2-------------------------------------2-4--------------|
D|----0----------------------------------------------------------|
A|-----0---------------------------------------------------------|
D|---------------------------------------------------------------|

e|---------------------------------------------------------------|
B|------3-3s7---7s3-3---------------------------------------------|
G|-2-4------------------4b-2----2--2-2------------------------------|
D|------------------------------------------------0-3b--0-3b--3-0--------|
A|-----------------------------(0)----------0h2-------------------------3b-5-|
D|-----------(0)-----------------------------------------------------0------|

e|---------------------0-------------------------------------------|
B|----3-3--3-3--3-3----3-----------------------------------------|
G|---------------------------------------------------------------|
D|---------------------------------------------------------------|
A|-0----3--3-2--2-1--1-0-----0-----0------------------------------|
D|-0--0---------------------2p0-3--------------------------------|
00:53 (Aqui começa a gaita)

e|---------------x-------------------------------------------------|
B|---------------x-------------------------------------------------|
G|---------------x------0A-----------------0A-------------------------|
D|-(0)-4-5-7~--x--3b-0A---7-7s4-4-----0A---7-7-7s5-5-------------|
A|----------------x--------------------------------------------0A-0-1-2---|
D|---------------x----------------------2b--------------------3A---------|

e|-----2-2---------2-2-2-2---------------------------------------|
B|-----3-3---------3-3-3-3---------------------------------------|
G|---0-2-2-------0-2-2-2-2--------------------2-2---2------------|
D|-3-----------3----------------------4--3b/--------4--------------|
A|---------(0)----------------0-3b-5--------0-----------0-2-5----|
D|---------------------------------------------------------------|

e|---------------------------------------------------------------|
B|-6b-6b-6--------------3-3--3-3--3-3--3-3--------------------|
G|---------7---5b6-7---------------------------------------------|
D|---------7-7-------(0)---------------------------------7-------|
A|---------------------------3--3-2--2-1--1-0--------------------|
D|-------------------------0---------------------3-5-6-7---------|

e|---------------------------------------------------------------|
B|---------------------------------------------------------------|
G|-----------------------0A------------------------0A------------|
D|--------0A-6S7~-----3b-0A---5s7-5s7s3-3s4-----3b-0A------------|
A|--------0A-------0A--------------------------------------------|
D|-(0)-8b----------3A-----------------------(0)------------------|

e|---------------------------------------------------------------|
B|---------------------------------------------------------------|
G|----------------4-------------------------------------------------|
D|-5s7-5s7-7s5-5-------------------------------------------------|
A|---------------------------------------------------------------|
D|---------------------------------------------------------------|
Voltar ao Topo
Ver o perfil de Usuários Enviar Mensagem Particular
Stormy Minded
Monitor
Monitor


Registrado em: Sexta-Feira, 25 de Fevereiro de 2005
Mensagens: 479

MensagemEnviada: Seg Fev 06, 2006 12:12 pm    Assunto: Responder com Citação

Fala, Carit!

Eu ouvi o som, e pra mim também é complicado decifrar tudo aquilo... O que eu posso te dizer é (você talvez já saiba) que esse som é do Robert Johnson. O Eric Clapton fez uma versão excelente no disco "Me and Mr. Johnson", com a diferença que a música é cantada. O que quero te dizer é pra você não ficar preso numa versão, a não ser que você queira montar uma banda cover... Escute outras versões, e monte a sua! Eu sei, é fácil falar... Mas a essência do blues é essa, a improvisação. Você vai se sentir mais satisfeito tocando sua versão do que a cópia idêntica do que alguém já fez.
Mas se você quer realmente tocar da mesma forma, acho que um caminho é mandar email pros caras do Blues Etílicos e pedir a tab. Se eles tiverem, acredito que eles te mandem. Mas a chance deles não terem é grande (!), exatamente pelo senso de improvisação que o blues tem.
Desculpe não poder ajudar, mas é melhor do que ter postado e não ter recebido resposta alguma....

Um abraço!
Voltar ao Topo
Ver o perfil de Usuários Enviar Mensagem Particular
Mostrar os tópicos anteriores:   
Novo Tópico   Responder Mensagem    Fórum Cifras - Índice do Fórum -> Outros Ritmos Todos os horários são GMT - 1 Hours
Página 1 de 1

 
Ir para:  
Enviar Mensagens Novas: Proibído.
Responder Tópicos Proibído
Editar Mensagens: Proibído.
Excluir Mensagens: Proibído.
Votar em Enquetes: Proibído.


Powered by phpBB © 2001, 2012 phpBB Group