Fórum Cifras - Índice do Fórum
FAQFAQ PesquisarPesquisar MembrosMembros GruposGrupos RegistrarRegistrar  
PerfilPerfil Entrar e ver Mensagens ParticularesEntrar e ver Mensagens Particulares EntrarEntrar 

Estudo de arpejos do Malmsteen...

 
Novo Tópico   Responder Mensagem    Fórum Cifras - Índice do Fórum -> Guitarra
Exibir mensagem anterior :: Exibir próxima mensagem  
Autor Mensagem
Vallim guitar



Registrado em: Quarta-Feira, 6 de Setembro de 2006
Mensagens: 21

MensagemEnviada: Dom Set 10, 2006 2:09 am    Assunto: estudo de arpejos do Malmsteen... Responder com Citação

esse é o cara,esses arpejos são muito loucos p estudo.
Código:
MALMSTEEN, YNGWIE - ARPEJO 2






 

 





|-11----------------------------------------------|
|----12----------11-12-14-16----------------------|
|-------13----13-------------16-------------------|
|----------13-------------------18----18-20-21-23-|
|----------------------------------18-------------|
|-------------------------------------------------|



|--------------------------------------------------|
|--------------------------------------------------|
|-21-------------------20-21-------------------20--|
|----23-20----20-21-23-------23-20----20-21-23-----|
|----------22----------------------22--------------|
|--------------------------------------------------|



|-------------------------------------------------|
|-------------------------------------------------|
|-20----------------------20----------------------|
|----21----------20-21-23----21----------20-21-23-|
|-------23----23----------------23----23----------|
|----------23----------------------23-------------|


   
|-------------------------------------------------|
|-------------------------------------------------|
|-------------------------21----------------------|
|-23-20-------------20-------23-20----20-21-23-20-|
|-------22----22-23----22----------22-------------|
|----------24-------------------------------------|


|-------------------------------------------------|
|-------------------------------------21----------|
|-21----------------------21-------------20-------|
|----23-20----23-20----------23-20----------21----|
|----------22-------22-------------22----------23-|
|----------------------24-------------------------|



|------------------------4-------4-------|
|--------------------------4-------6-----|
|-20-------------------4-----4-------7---|
|----21-------21---------------6-------9-|
|-------23-------23----------------------|
|----------23-------23-------------------|



|-7---------10----------13----------16----------|
|---9----------12----------15----------16-------|
|-----10----------13----------16----------15-13-|
|--------12----------15----------18-------------|
|-----------------------------------------------|
|-----------------------------------------------|



|-16----------15----------15---------------*|
|----16----------16----------16------------*|
|-------15-13-------15----------15---------*|
|----------------------17----------17-18---*|
|------------------------------------------*|
|------------------------------------------*|

Voltar ao Topo
Ver o perfil de Usuários Enviar Mensagem Particular
† Maiden †



Registrado em: Segunda-Feira, 17 de Abril de 2006
Mensagens: 1069

MensagemEnviada: Dom Set 10, 2006 12:06 pm    Assunto: Responder com Citação

Ae, ficou melhor valim.

Ae gente, to com muita dificuldade nesses arpejos, não sai legal... Alguem tem alguma dica?

te mais... Cool
Voltar ao Topo
Ver o perfil de Usuários Enviar Mensagem Particular
Caiocs



Registrado em: Terça-Feira, 25 de Janeiro de 2005
Mensagens: 271

MensagemEnviada: Dom Set 10, 2006 1:20 pm    Assunto: Responder com Citação

pra quem tem guitar pro, esse aqui eh bem legal pra treinar tbm, acho q eh o mesmo mas no guitar pro, pra quem gosta de ouvir:

http://rapidshare.de/files/32619899/Malmsteen__Yngwie_-_Arpejo_2.gp3.html
Voltar ao Topo
Ver o perfil de Usuários Enviar Mensagem Particular
Vallim guitar



Registrado em: Quarta-Feira, 6 de Setembro de 2006
Mensagens: 21

MensagemEnviada: Sex Set 15, 2006 2:50 pm    Assunto: Responder com Citação

...Valeu cara,seguinte: observa bem quanto ao posicionamento dos dedos,eles devem ficar bem em pé,ou seja,toca as notas cm a cabeça do dedo,entendeu? abafa as notas de leve em palm mutting,pois senão os arpejos ficvam dissonantes,as notas ficam soando e não dá uma sonoridade legal...
Voltar ao Topo
Ver o perfil de Usuários Enviar Mensagem Particular
† Maiden †



Registrado em: Segunda-Feira, 17 de Abril de 2006
Mensagens: 1069

MensagemEnviada: Sex Set 15, 2006 9:40 pm    Assunto: Responder com Citação

Então é como se eu fosse fazer um acorde? Mas pelo o que eu li em alguns sites tem que fazer palhetada alternada... Ta certo isso?

te mais... Cool
Voltar ao Topo
Ver o perfil de Usuários Enviar Mensagem Particular
Vallim guitar



Registrado em: Quarta-Feira, 6 de Setembro de 2006
Mensagens: 21

MensagemEnviada: Sáb Set 16, 2006 5:05 pm    Assunto: Responder com Citação

...isso cara,quando as notas aparecem uma por corda tu usas o sweep,que consiste na palheta no mesmo sentido,como se fosse uma batidas,saca? mas observa para não voltar a palheta a cada corda,procura obter uma boa coordenação quanto a isso; quando aparecerem mais notas na mesma corda tu alternas a palheta.Abração
Voltar ao Topo
Ver o perfil de Usuários Enviar Mensagem Particular
† Maiden †



Registrado em: Segunda-Feira, 17 de Abril de 2006
Mensagens: 1069

MensagemEnviada: Sáb Set 16, 2006 9:17 pm    Assunto: Responder com Citação

brigadaum cara, valeu mesmo.

te mais... Cool
Voltar ao Topo
Ver o perfil de Usuários Enviar Mensagem Particular
Hands_All_Over



Registrado em: Sábado, 26 de Mai de 2012
Mensagens: 54

MensagemEnviada: Qua Jan 30, 2013 8:04 pm    Assunto: Responder com Citação

Up...Se mais aguem saber arpejos do malmsteen pode mandar Smile Muito animal ate na improvisacao Very Happy
Voltar ao Topo
Ver o perfil de Usuários Enviar Mensagem Particular
Mostrar os tópicos anteriores:   
Novo Tópico   Responder Mensagem    Fórum Cifras - Índice do Fórum -> Guitarra Todos os horários são GMT - 1 Hours
Página 1 de 1

 
Ir para:  
Enviar Mensagens Novas: Proibído.
Responder Tópicos Proibído
Editar Mensagens: Proibído.
Excluir Mensagens: Proibído.
Votar em Enquetes: Proibído.


Powered by phpBB © 2001, 2012 phpBB Group